  0
SECTION
  2
HEADER
  9
$ACADVER
  1
AC1015
  9
$ACADMAINTVER
 70
     6
  9
$DWGCODEPAGE
  3
ANSI_1254
  9
$INSBASE
 10
0.0
 20
0.0
 30
0.0
  9
$EXTMIN
 10
0.0
 20
0.0
 30
0.0
  9
$EXTMAX
 10
279.4
 20
215.9
 30
0.0
  9
$LIMMIN
 10
0.0
 20
0.0
  9
$LIMMAX
 10
279.4
 20
215.9
  9
$ORTHOMODE
 70
     0
  9
$REGENMODE
 70
     1
  9
$FILLMODE
 70
     1
  9
$QTEXTMODE
 70
     0
  9
$MIRRTEXT
 70
     1
  9
$LTSCALE
 40
1.0
  9
$ATTMODE
 70
     1
  9
$TEXTSIZE
 40
3.5
  9
$TRACEWID
 40
1.0
  9
$TEXTSTYLE
  7
Standard
  9
$CLAYER
  8
0
  9
$CELTYPE
  6
ByLayer
  9
$CECOLOR
 62
   256
  9
$CELTSCALE
 40
1.0
  9
$DISPSILH
 70
     0
  9
$DIMSCALE
 40
1.0
  9
$DIMASZ
 40
3.5
  9
$DIMEXO
 40
1.0
  9
$DIMDLI
 40
3.75
  9
$DIMRND
 40
0.0
  9
$DIMDLE
 40
0.0
  9
$DIMEXE
 40
1.0
  9
$DIMTP
 40
0.0
  9
$DIMTM
 40
0.0
  9
$DIMTXT
 40
3.5
  9
$DIMCEN
 40
2.5
  9
$DIMTSZ
 40
0.0
  9
$DIMTOL
 70
     0
  9
$DIMLIM
 70
     0
  9
$DIMTIH
 70
     1
  9
$DIMTOH
 70
     1
  9
$DIMSE1
 70
     0
  9
$DIMSE2
 70
     0
  9
$DIMTAD
 70
     1
  9
$DIMZIN
 70
     0
  9
$DIMBLK
  1

  9
$DIMASO
 70
     1
  9
$DIMSHO
 70
     1
  9
$DIMPOST
  1

  9
$DIMAPOST
  1

  9
$DIMALT
 70
     0
  9
$DIMALTD
 70
     3
  9
$DIMALTF
 40
0.0393700787
  9
$DIMLFAC
 40
1.0
  9
$DIMTOFL
 70
     1
  9
$DIMTVP
 40
0.0
  9
$DIMTIX
 70
     0
  9
$DIMSOXD
 70
     0
  9
$DIMSAH
 70
     0
  9
$DIMBLK1
  1

  9
$DIMBLK2
  1

  9
$DIMSTYLE
  2
ISO-25
  9
$DIMCLRD
 70
     0
  9
$DIMCLRE
 70
     0
  9
$DIMCLRT
 70
     0
  9
$DIMTFAC
 40
1.0
  9
$DIMGAP
 40
1.524
  9
$DIMJUST
 70
     0
  9
$DIMSD1
 70
     0
  9
$DIMSD2
 70
     0
  9
$DIMTOLJ
 70
     0
  9
$DIMTZIN
 70
     0
  9
$DIMALTZ
 70
     0
  9
$DIMALTTZ
 70
     0
  9
$DIMUPT
 70
     0
  9
$DIMDEC
 70
     2
  9
$DIMTDEC
 70
     2
  9
$DIMALTU
 70
     2
  9
$DIMALTTD
 70
     3
  9
$DIMTXSTY
  7
Standard
  9
$DIMAUNIT
 70
     0
  9
$DIMADEC
 70
     2
  9
$DIMALTRND
 40
0.0
  9
$DIMAZIN
 70
     0
  9
$DIMDSEP
 70
    44
  9
$DIMATFIT
 70
     3
  9
$DIMFRAC
 70
     0
  9
$DIMLDRBLK
  1

  9
$DIMLUNIT
 70
     2
  9
$DIMLWD
 70
    -2
  9
$DIMLWE
 70
    -2
  9
$DIMTMOVE
 70
     0
  9
$LUNITS
 70
     2
  9
$LUPREC
 70
     2
  9
$SKETCHINC
 40
1.0
  9
$FILLETRAD
 40
10.0
  9
$AUNITS
 70
     0
  9
$AUPREC
 70
     2
  9
$MENU
  1
.
  9
$ELEVATION
 40
0.0
  9
$PELEVATION
 40
0.0
  9
$THICKNESS
 40
0.0
  9
$LIMCHECK
 70
     0
  9
$CHAMFERA
 40
0.0
  9
$CHAMFERB
 40
0.0
  9
$CHAMFERC
 40
0.0
  9
$CHAMFERD
 40
0.0
  9
$SKPOLY
 70
     0
  9
$TDCREATE
 40
2459935.709732384
  9
$TDUCREATE
 40
2459935.584732384
  9
$TDUPDATE
 40
2459935.709732558
  9
$TDUUPDATE
 40
2459935.584732558
  9
$TDINDWG
 40
0.0000000116
  9
$TDUSRTIMER
 40
0.0000000116
  9
$USRTIMER
 70
     1
  9
$ANGBASE
 50
0.0
  9
$ANGDIR
 70
     0
  9
$PDMODE
 70
     0
  9
$PDSIZE
 40
-1.0
  9
$PLINEWID
 40
0.0
  9
$SPLFRAME
 70
     0
  9
$SPLINETYPE
 70
     6
  9
$SPLINESEGS
 70
     8
  9
$HANDSEED
  5
F5
  9
$SURFTAB1
 70
     6
  9
$SURFTAB2
 70
     6
  9
$SURFTYPE
 70
     6
  9
$SURFU
 70
     6
  9
$SURFV
 70
     6
  9
$UCSBASE
  2

  9
$UCSNAME
  2

  9
$UCSORG
 10
0.0
 20
0.0
 30
0.0
  9
$UCSXDIR
 10
1.0
 20
0.0
 30
0.0
  9
$UCSYDIR
 10
0.0
 20
1.0
 30
0.0
  9
$UCSORTHOREF
  2

  9
$UCSORTHOVIEW
 70
     0
  9
$UCSORGTOP
 10
0.0
 20
0.0
 30
0.0
  9
$UCSORGBOTTOM
 10
0.0
 20
0.0
 30
0.0
  9
$UCSORGLEFT
 10
0.0
 20
0.0
 30
0.0
  9
$UCSORGRIGHT
 10
0.0
 20
0.0
 30
0.0
  9
$UCSORGFRONT
 10
0.0
 20
0.0
 30
0.0
  9
$UCSORGBACK
 10
0.0
 20
0.0
 30
0.0
  9
$PUCSBASE
  2

  9
$PUCSNAME
  2

  9
$PUCSORG
 10
0.0
 20
0.0
 30
0.0
  9
$PUCSXDIR
 10
1.0
 20
0.0
 30
0.0
  9
$PUCSYDIR
 10
0.0
 20
1.0
 30
0.0
  9
$PUCSORTHOREF
  2

  9
$PUCSORTHOVIEW
 70
     0
  9
$PUCSORGTOP
 10
0.0
 20
0.0
 30
0.0
  9
$PUCSORGBOTTOM
 10
0.0
 20
0.0
 30
0.0
  9
$PUCSORGLEFT
 10
0.0
 20
0.0
 30
0.0
  9
$PUCSORGRIGHT
 10
0.0
 20
0.0
 30
0.0
  9
$PUCSORGFRONT
 10
0.0
 20
0.0
 30
0.0
  9
$PUCSORGBACK
 10
0.0
 20
0.0
 30
0.0
  9
$USERI1
 70
     0
  9
$USERI2
 70
     0
  9
$USERI3
 70
     0
  9
$USERI4
 70
     0
  9
$USERI5
 70
     0
  9
$USERR1
 40
0.0
  9
$USERR2
 40
0.0
  9
$USERR3
 40
0.0
  9
$USERR4
 40
0.0
  9
$USERR5
 40
0.0
  9
$WORLDVIEW
 70
     1
  9
$SHADEDGE
 70
     3
  9
$SHADEDIF
 70
    70
  9
$TILEMODE
 70
     1
  9
$MAXACTVP
 70
    64
  9
$PINSBASE
 10
0.0
 20
0.0
 30
0.0
  9
$PLIMCHECK
 70
     0
  9
$PEXTMIN
 10
1.0000000000E+20
 20
1.0000000000E+20
 30
1.0000000000E+20
  9
$PEXTMAX
 10
-1.0000000000E+20
 20
-1.0000000000E+20
 30
-1.0000000000E+20
  9
$PLIMMIN
 10
0.0
 20
0.0
  9
$PLIMMAX
 10
420.0
 20
297.0
  9
$UNITMODE
 70
     0
  9
$VISRETAIN
 70
     1
  9
$PLINEGEN
 70
     0
  9
$PSLTSCALE
 70
     1
  9
$TREEDEPTH
 70
  3020
  9
$CMLSTYLE
  2
Standard
  9
$CMLJUST
 70
     0
  9
$CMLSCALE
 40
20.0
  9
$PROXYGRAPHICS
 70
     1
  9
$MEASUREMENT
 70
     1
  9
$CELWEIGHT
370
    -1
  9
$ENDCAPS
280
     0
  9
$JOINSTYLE
280
     0
  9
$LWDISPLAY
290
     1
  9
$INSUNITS
 70
     4
  9
$HYPERLINKBASE
  1

  9
$STYLESHEET
  1

  9
$XEDIT
290
     1
  9
$CEPSNTYPE
380
     0
  9
$PSTYLEMODE
290
     1
  9
$FINGERPRINTGUID
  2
{fbee34da-ecb0-4410-aa7a-5e12d655d298}
  9
$VERSIONGUID
  2
{FAEB1C32-E019-11D5-929B-00C0DF256EC4}
  9
$EXTNAMES
290
     1
  9
$PSVPSCALE
 40
0.0
  9
$OLESTARTUP
290
     0
  0
ENDSEC
  0
SECTION
  2
CLASSES
  0
CLASS
  1
ACDBDICTIONARYWDFLT
  2
AcDbDictionaryWithDefault
  3
ObjectDBX Classes
 90
        0
280
     0
281
     0
  0
CLASS
  1
VISUALSTYLE
  2
AcDbVisualStyle
  3
ObjectDBX Classes
 90
     4095
280
     0
281
     0
  0
CLASS
  1
MATERIAL
  2
AcDbMaterial
  3
ObjectDBX Classes
 90
     1153
280
     0
281
     0
  0
CLASS
  1
SCALE
  2
AcDbScale
  3
ObjectDBX Classes
 90
     1153
280
     0
281
     0
  0
CLASS
  1
TABLESTYLE
  2
AcDbTableStyle
  3
ObjectDBX Classes
 90
     4095
280
     0
281
     0
  0
CLASS
  1
MLEADERSTYLE
  2
AcDbMLeaderStyle
  3
ACDB_MLEADERSTYLE_CLASS
 90
     4095
280
     0
281
     0
  0
CLASS
  1
SUN
  2
AcDbSun
  3
SCENEOE
 90
     1153
280
     0
281
     0
  0
CLASS
  1
ACDBPLACEHOLDER
  2
AcDbPlaceHolder
  3
ObjectDBX Classes
 90
        0
280
     0
281
     0
  0
CLASS
  1
LAYOUT
  2
AcDbLayout
  3
ObjectDBX Classes
 90
        0
280
     0
281
     0
  0
ENDSEC
  0
SECTION
  2
TABLES
  0
TABLE
  2
VPORT
  5
8
330
0
100
AcDbSymbolTable
 70
     1
  0
VPORT
  5
29
330
8
100
AcDbSymbolTableRecord
100
AcDbViewportTableRecord
  2
*Active
 70
     0
 10
0.0
 20
0.0
 11
1.0
 21
1.0
 12
139.7
 22
107.95
 13
0.0
 23
0.0
 14
10.0
 24
10.0
 15
10.0
 25
10.0
 16
0.0
 26
0.0
 36
1.0
 17
0.0
 27
0.0
 37
0.0
 40
215.9
 41
1.2941176471
 42
50.0
 43
0.0
 44
0.0
 50
0.0
 51
0.0
 71
     0
 72
  2000
 73
     1
 74
     3
 75
     0
 76
     0
 77
     0
 78
     0
281
     0
 65
     1
110
0.0
120
0.0
130
0.0
111
1.0
121
0.0
131
0.0
112
0.0
122
1.0
132
0.0
 79
     0
146
0.0
  0
ENDTAB
  0
TABLE
  2
LTYPE
  5
5
330
0
100
AcDbSymbolTable
 70
     6
  0
LTYPE
  5
14
330
5
100
AcDbSymbolTableRecord
100
AcDbLinetypeTableRecord
  2
ByBlock
 70
     0
  3

 72
    65
 73
     0
 40
0.0
  0
LTYPE
  5
15
330
5
100
AcDbSymbolTableRecord
100
AcDbLinetypeTableRecord
  2
ByLayer
 70
     0
  3

 72
    65
 73
     0
 40
0.0
  0
LTYPE
  5
16
330
5
100
AcDbSymbolTableRecord
100
AcDbLinetypeTableRecord
  2
Continuous
 70
     0
  3
Solid line
 72
    65
 73
     0
 40
0.0
  0
LTYPE
  5
6E
330
5
100
AcDbSymbolTableRecord
100
AcDbLinetypeTableRecord
  2
HIDDEN
 70
     0
  3
Hidden __ __ __ __ __ __ __ __ __ __ __ __ __ __
 72
    65
 73
     2
 40
1.905
 49
1.27
 74
     0
 49
-0.635
 74
     0
  0
LTYPE
  5
6F
330
5
100
AcDbSymbolTableRecord
100
AcDbLinetypeTableRecord
  2
PHANTOM
 70
     0
  3
Phantom ______  __  __  ______  __  __  ______
 72
    65
 73
     6
 40
12.7
 49
6.35
 74
     0
 49
-1.27
 74
     0
 49
1.27
 74
     0
 49
-1.27
 74
     0
 49
1.27
 74
     0
 49
-1.27
 74
     0
  0
LTYPE
  5
70
330
5
100
AcDbSymbolTableRecord
100
AcDbLinetypeTableRecord
  2
CENTER
 70
     0
  3
Center ____ _ ____ _ ____ _ ____ _ ____ _ ____
 72
    65
 73
     4
 40
10.16
 49
6.35
 74
     0
 49
-1.27
 74
     0
 49
1.27
 74
     0
 49
-1.27
 74
     0
  0
LTYPE
  5
71
330
5
100
AcDbSymbolTableRecord
100
AcDbLinetypeTableRecord
  2
CENTERX2
 70
     0
  3
Center (2x) ________  __  ________  __  _____
 72
    65
 73
     4
 40
20.32
 49
12.7
 74
     0
 49
-2.54
 74
     0
 49
2.54
 74
     0
 49
-2.54
 74
     0
  0
LTYPE
  5
72
330
5
100
AcDbSymbolTableRecord
100
AcDbLinetypeTableRecord
  2
DOT2
 70
     0
  3
Dot (.5x) ........................................
 72
    65
 73
     2
 40
0.635
 49
0.0
 74
     0
 49
-0.635
 74
     0
  0
ENDTAB
  0
TABLE
  2
LAYER
  5
2
330
0
100
AcDbSymbolTable
 70
    17
  0
LAYER
  5
10
330
2
100
AcDbSymbolTableRecord
100
AcDbLayerTableRecord
  2
0
 70
     0
 62
     7
  6
Continuous
370
    -3
390
F
  0
LAYER
  5
73
330
2
100
AcDbSymbolTableRecord
100
AcDbLayerTableRecord
  2
FORMAT
 70
     0
 62
     7
  6
Continuous
370
    -3
390
F
  0
LAYER
  5
74
330
2
100
AcDbSymbolTableRecord
100
AcDbLayerTableRecord
  2
YARDIMCI_GEOMETRI
 70
     0
 62
    -6
  6
Continuous
290
     0
370
    -3
390
F
  0
LAYER
  5
75
330
2
100
AcDbSymbolTableRecord
100
AcDbLayerTableRecord
  2
SAYFA_CERCEVESI
 70
     0
 62
     7
  6
Continuous
370
    25
390
F
  0
LAYER
  5
76
330
2
100
AcDbSymbolTableRecord
100
AcDbLayerTableRecord
  2
ANTET
 70
     0
 62
     7
  6
Continuous
370
    -3
390
F
  0
LAYER
  5
77
330
2
100
AcDbSymbolTableRecord
100
AcDbLayerTableRecord
  2
OLCU
 70
     0
 62
   150
  6
Continuous
370
    -3
390
F
  0
LAYER
  5
78
330
2
100
AcDbSymbolTableRecord
100
AcDbLayerTableRecord
  2
METIN
 70
     0
 62
    96
  6
Continuous
370
    -3
390
F
  0
LAYER
  5
79
330
2
100
AcDbSymbolTableRecord
100
AcDbLayerTableRecord
  2
BALON
 70
     0
 62
     5
  6
Continuous
370
    -3
390
F
  0
LAYER
  5
7A
330
2
100
AcDbSymbolTableRecord
100
AcDbLayerTableRecord
  2
VURGU
 70
     0
 62
     7
  6
Continuous
370
    -3
390
F
  0
LAYER
  5
7B
330
2
100
AcDbSymbolTableRecord
100
AcDbLayerTableRecord
  2
SILIK
 70
     0
 62
     7
  6
Continuous
370
    -3
390
F
  0
LAYER
  5
7C
330
2
100
AcDbSymbolTableRecord
100
AcDbLayerTableRecord
  2
MODEL
 70
     0
 62
     7
  6
Continuous
370
    -3
390
F
  0
LAYER
  5
7D
330
2
100
AcDbSymbolTableRecord
100
AcDbLayerTableRecord
  2
DETAYLANDıRMA
 70
     0
 62
   190
  6
Continuous
370
    -3
390
F
  0
LAYER
  5
7E
330
2
100
AcDbSymbolTableRecord
100
AcDbLayerTableRecord
  2
TOLERANS
 70
     0
 62
   230
  6
Continuous
370
    -3
390
F
  0
LAYER
  5
7F
330
2
100
AcDbSymbolTableRecord
100
AcDbLayerTableRecord
  2
MERKEZ_CIZGILERI
 70
     0
 62
    30
  6
Continuous
370
    -3
390
F
  0
LAYER
  5
80
330
2
100
AcDbSymbolTableRecord
100
AcDbLayerTableRecord
  2
KESIT-DETAY_CIZGILERI
 70
     0
 62
     7
  6
Continuous
370
    -3
390
F
  0
LAYER
  5
81
330
2
100
AcDbSymbolTableRecord
100
AcDbLayerTableRecord
  2
\U+041E\U+0421\U+0415\U+0412\U+042B\U+0415
 70
     0
 62
     7
  6
Continuous
370
    -3
390
F
  0
LAYER
  5
82
330
2
100
AcDbSymbolTableRecord
100
AcDbLayerTableRecord
  2
\U+0412\U+041E\U+0414\U+042F\U+041D\U+042B\U+0415_\U+0417\U+041D\U+0410\U+041A\U+0418
 70
     0
 62
    11
  6
Continuous
370
    -3
390
F
  0
ENDTAB
  0
TABLE
  2
STYLE
  5
3
330
0
100
AcDbSymbolTable
 70
     1
  0
STYLE
  5
11
330
3
100
AcDbSymbolTableRecord
100
AcDbTextStyleTableRecord
  2
Standard
 70
     0
 40
0.0
 41
1.0
 50
0.0
 71
     0
 42
3.5
  3
txt
  4

  0
ENDTAB
  0
TABLE
  2
VIEW
  5
6
330
0
100
AcDbSymbolTable
 70
     0
  0
ENDTAB
  0
TABLE
  2
UCS
  5
7
330
0
100
AcDbSymbolTable
 70
     0
  0
ENDTAB
  0
TABLE
  2
APPID
  5
9
330
0
100
AcDbSymbolTable
 70
     1
  0
APPID
  5
12
330
9
100
AcDbSymbolTableRecord
100
AcDbRegAppTableRecord
  2
ACAD
 70
     0
  0
ENDTAB
  0
TABLE
  2
DIMSTYLE
  5
A
330
0
100
AcDbSymbolTable
 70
     1
100
AcDbDimStyleTable
  0
DIMSTYLE
105
27
330
A
100
AcDbSymbolTableRecord
100
AcDbDimStyleTableRecord
  2
ISO-25
 70
     0
 41
2.5
 42
0.625
 43
3.75
 44
1.25
 73
     0
 74
     0
 77
     1
 78
     8
140
2.5
141
2.5
143
0.0393700787
147
0.625
171
     3
172
     1
178
     0
271
     2
272
     2
274
     3
278
    44
283
     0
284
     8
340
11
  0
ENDTAB
  0
TABLE
  2
BLOCK_RECORD
  5
1
330
0
100
AcDbSymbolTable
 70
     2
  0
BLOCK_RECORD
  5
1F
330
1
100
AcDbSymbolTableRecord
100
AcDbBlockTableRecord
  2
*Model_Space
340
22
  0
BLOCK_RECORD
  5
1B
330
1
100
AcDbSymbolTableRecord
100
AcDbBlockTableRecord
  2
*Paper_Space
340
1E
  0
BLOCK_RECORD
  5
23
330
1
100
AcDbSymbolTableRecord
100
AcDbBlockTableRecord
  2
*Paper_Space0
340
26
  0
BLOCK_RECORD
  5
88
330
1
100
AcDbSymbolTableRecord
100
AcDbBlockTableRecord
  2
SW_CENTERMARKSYMBOL_0
340
0
102
{BLKREFS
331
93
102
}
  0
ENDTAB
  0
ENDSEC
  0
SECTION
  2
BLOCKS
  0
BLOCK
  5
20
330
1F
100
AcDbEntity
  8
0
100
AcDbBlockBegin
  2
*Model_Space
 70
     0
 10
0.0
 20
0.0
 30
0.0
  3
*Model_Space
  1

  0
ENDBLK
  5
21
330
1F
100
AcDbEntity
  8
0
100
AcDbBlockEnd
  0
BLOCK
  5
1C
330
1B
100
AcDbEntity
 67
     1
  8
0
100
AcDbBlockBegin
  2
*Paper_Space
 70
     0
 10
0.0
 20
0.0
 30
0.0
  3
*Paper_Space
  1

  0
ENDBLK
  5
1D
330
1B
100
AcDbEntity
 67
     1
  8
0
100
AcDbBlockEnd
  0
BLOCK
  5
24
330
23
100
AcDbEntity
  8
0
100
AcDbBlockBegin
  2
*Paper_Space0
 70
     0
 10
0.0
 20
0.0
 30
0.0
  3
*Paper_Space0
  1

  0
ENDBLK
  5
25
330
23
100
AcDbEntity
  8
0
100
AcDbBlockEnd
  0
BLOCK
  5
89
330
88
100
AcDbEntity
  8
0
100
AcDbBlockBegin
  2
SW_CENTERMARKSYMBOL_0
 70
     0
 10
0.0
 20
0.0
 30
0.0
  3
SW_CENTERMARKSYMBOL_0
  1

  0
LINE
  5
8B
330
88
100
AcDbEntity
  8
FORMAT
 62
     0
100
AcDbLine
 10
0.0
 20
0.0
 30
0.0
 11
0.0
 21
2.5
 31
0.0
  0
LINE
  5
8C
330
88
100
AcDbEntity
  8
FORMAT
 62
     0
100
AcDbLine
 10
0.0
 20
0.0
 30
0.0
 11
-2.5
 21
0.0
 31
0.0
  0
LINE
  5
8D
330
88
100
AcDbEntity
  8
FORMAT
 62
     0
100
AcDbLine
 10
0.0
 20
0.0
 30
0.0
 11
0.0
 21
-2.5
 31
0.0
  0
LINE
  5
8E
330
88
100
AcDbEntity
  8
FORMAT
 62
     0
100
AcDbLine
 10
0.0
 20
0.0
 30
0.0
 11
2.5
 21
0.0
 31
0.0
  0
LINE
  5
8F
330
88
100
AcDbEntity
  8
FORMAT
 62
     0
100
AcDbLine
 10
0.0
 20
5.0
 30
0.0
 11
0.0
 21
142.75
 31
0.0
  0
LINE
  5
90
330
88
100
AcDbEntity
  8
FORMAT
 62
     0
100
AcDbLine
 10
-5.0
 20
0.0
 30
0.0
 11
-142.75
 21
0.0
 31
0.0
  0
LINE
  5
91
330
88
100
AcDbEntity
  8
FORMAT
 62
     0
100
AcDbLine
 10
0.0
 20
-5.0
 30
0.0
 11
0.0
 21
-142.75
 31
0.0
  0
LINE
  5
92
330
88
100
AcDbEntity
  8
FORMAT
 62
     0
100
AcDbLine
 10
5.0
 20
0.0
 30
0.0
 11
142.75
 21
0.0
 31
0.0
  0
ENDBLK
  5
8A
330
88
100
AcDbEntity
  8
0
100
AcDbBlockEnd
  0
ENDSEC
  0
SECTION
  2
ENTITIES
  0
CIRCLE
  5
83
330
1F
100
AcDbEntity
  8
0
  6
Continuous
 62
     7
370
    25
100
AcDbCircle
 10
137.9424909615
 20
108.5958316346
 30
0.0
 40
109.55
  0
CIRCLE
  5
84
330
1F
100
AcDbEntity
  8
0
  6
Continuous
 62
     7
370
    25
100
AcDbCircle
 10
137.9424909615
 20
108.5958316346
 30
0.0
 40
96.85000000000002
  0
CIRCLE
  5
85
330
1F
100
AcDbEntity
  8
0
  6
Continuous
 62
     7
370
    25
100
AcDbCircle
 10
137.9424909615
 20
108.5958316346
 30
0.0
 40
110.0
  0
CIRCLE
  5
86
330
1F
100
AcDbEntity
  8
0
  6
Continuous
 62
     7
370
    25
100
AcDbCircle
 10
137.9424909615
 20
108.5958316346
 30
0.0
 40
140.25
  0
CIRCLE
  5
87
330
1F
100
AcDbEntity
  8
0
  6
Continuous
 62
     7
370
    25
100
AcDbCircle
 10
137.9424909615
 20
108.5958316346
 30
0.0
 40
92.0
  0
INSERT
  5
93
330
1F
100
AcDbEntity
  8
FORMAT
 62
     7
100
AcDbBlockReference
  2
SW_CENTERMARKSYMBOL_0
 10
137.9424909615
 20
108.5958316346
 30
0.0
  0
LINE
  5
94
330
1F
100
AcDbEntity
  8
0
  6
Continuous
 62
     7
370
    25
100
AcDbLine
 10
-678.3178296889
 20
248.8458316346
 30
0.0
 11
-727.3178296889
 21
221.0958316346
 31
0.0
  0
LINE
  5
95
330
1F
100
AcDbEntity
  8
0
  6
Continuous
 62
     7
370
    25
100
AcDbLine
 10
-727.3178296889
 20
-3.9041683654
 30
0.0
 11
-678.3178296889
 21
-31.6541683654
 31
0.0
  0
LINE
  5
96
330
1F
100
AcDbEntity
  8
0
  6
Continuous
 62
     7
370
    25
100
AcDbLine
 10
-547.3178296889
 20
248.8458316346
 30
0.0
 11
-678.3178296889
 21
248.8458316346
 31
0.0
  0
LINE
  5
97
330
1F
100
AcDbEntity
  8
0
  6
Continuous
 62
     7
370
    25
100
AcDbLine
 10
-678.3178296889
 20
-31.6541683654
 30
0.0
 11
-547.3178296889
 21
-31.6541683654
 31
0.0
  0
LINE
  5
98
330
1F
100
AcDbEntity
  8
0
  6
Continuous
 62
     7
370
    25
100
AcDbLine
 10
-727.3178296889
 20
221.0958316346
 30
0.0
 11
-852.3178296889
 21
221.0958316346
 31
0.0
  0
LINE
  5
99
330
1F
100
AcDbEntity
  8
0
  6
Continuous
 62
     7
370
    25
100
AcDbLine
 10
-852.3178296889
 20
-3.9041683654
 30
0.0
 11
-727.3178296889
 21
-3.9041683654
 31
0.0
  0
LINE
  5
9A
330
1F
100
AcDbEntity
  8
0
  6
Continuous
 62
     7
370
    25
100
AcDbLine
 10
-546.3178296889
 20
218.5958316346
 30
0.0
 11
-547.3178296889
 21
218.5958316346
 31
0.0
  0
LINE
  5
9B
330
1F
100
AcDbEntity
  8
0
  6
Continuous
 62
     7
370
    25
100
AcDbLine
 10
-547.3178296889
 20
-1.4041683654
 30
0.0
 11
-546.3178296889
 21
-1.4041683654
 31
0.0
  0
LINE
  5
9C
330
1F
100
AcDbEntity
  8
0
  6
Continuous
 62
     7
370
    25
100
AcDbLine
 10
-177.3178296889
 20
218.1458316346
 30
0.0
 11
-546.3178296889
 21
218.1458316346
 31
0.0
  0
LINE
  5
9D
330
1F
100
AcDbEntity
  8
0
  6
Continuous
 62
     7
370
    25
100
AcDbLine
 10
-546.3178296889
 20
-0.9541683654
 30
0.0
 11
-177.3178296889
 21
-0.9541683654
 31
0.0
  0
LINE
  5
9E
330
1F
100
AcDbEntity
  8
0
  6
Continuous
 62
     7
370
    25
100
AcDbLine
 10
-727.3178296889
 20
221.0958316346
 30
0.0
 11
-727.3178296889
 21
-3.9041683654
 31
0.0
  0
LINE
  5
9F
330
1F
100
AcDbEntity
  8
0
  6
Continuous
 62
     7
370
    25
100
AcDbLine
 10
-678.3178296889
 20
248.8458316346
 30
0.0
 11
-678.3178296889
 21
-31.6541683654
 31
0.0
  0
LINE
  5
A0
330
1F
100
AcDbEntity
  8
0
  6
Continuous
 62
     7
370
    25
100
AcDbLine
 10
-547.3178296889
 20
248.8458316346
 30
0.0
 11
-547.3178296889
 21
-31.6541683654
 31
0.0
  0
LINE
  5
A1
330
1F
100
AcDbEntity
  8
0
  6
Continuous
 62
     7
370
    25
100
AcDbLine
 10
-852.3178296889
 20
221.0958316346
 30
0.0
 11
-852.3178296889
 21
-3.9041683654
 31
0.0
  0
LINE
  5
A2
330
1F
100
AcDbEntity
  8
0
  6
Continuous
 62
     7
370
    25
100
AcDbLine
 10
-546.3178296889
 20
218.5958316346
 30
0.0
 11
-546.3178296889
 21
-1.4041683654
 31
0.0
  0
LINE
  5
A3
330
1F
100
AcDbEntity
  8
0
  6
Continuous
 62
     7
370
    25
100
AcDbLine
 10
-177.3178296889
 20
218.1458316346
 30
0.0
 11
-177.3178296889
 21
-0.9541683654
 31
0.0
  0
LINE
  5
A4
330
1F
100
AcDbEntity
  8
0
  6
Continuous
 62
     7
370
    25
100
AcDbLine
 10
975.2008481944
 20
-31.6541683654
 30
0.0
 11
1024.2008481944
 21
-3.9041683654
 31
0.0
  0
LINE
  5
A5
330
1F
100
AcDbEntity
  8
0
  6
Continuous
 62
     7
370
    25
100
AcDbLine
 10
1024.2008481944
 20
221.0958316346
 30
0.0
 11
975.2008481944
 21
248.8458316346
 31
0.0
  0
LINE
  5
A6
330
1F
100
AcDbEntity
  8
0
  6
Continuous
 62
     7
370
    25
100
AcDbLine
 10
844.2008481944
 20
-31.6541683654
 30
0.0
 11
975.2008481944
 21
-31.6541683654
 31
0.0
  0
LINE
  5
A7
330
1F
100
AcDbEntity
  8
0
  6
Continuous
 62
     7
370
    25
100
AcDbLine
 10
975.2008481944
 20
248.8458316346
 30
0.0
 11
844.2008481944
 21
248.8458316346
 31
0.0
  0
LINE
  5
A8
330
1F
100
AcDbEntity
  8
0
  6
Continuous
 62
     7
370
    25
100
AcDbLine
 10
1024.2008481944
 20
-3.9041683654
 30
0.0
 11
1149.2008481944
 21
-3.9041683654
 31
0.0
  0
LINE
  5
A9
330
1F
100
AcDbEntity
  8
0
  6
Continuous
 62
     7
370
    25
100
AcDbLine
 10
1149.2008481944
 20
221.0958316346
 30
0.0
 11
1024.2008481944
 21
221.0958316346
 31
0.0
  0
LINE
  5
AA
330
1F
100
AcDbEntity
  8
0
  6
Continuous
 62
     7
370
    25
100
AcDbLine
 10
843.2008481944
 20
-1.4041683654
 30
0.0
 11
844.2008481944
 21
-1.4041683654
 31
0.0
  0
LINE
  5
AB
330
1F
100
AcDbEntity
  8
0
  6
Continuous
 62
     7
370
    25
100
AcDbLine
 10
844.2008481944
 20
218.5958316346
 30
0.0
 11
843.2008481944
 21
218.5958316346
 31
0.0
  0
LINE
  5
AC
330
1F
100
AcDbEntity
  8
0
  6
Continuous
 62
     7
370
    25
100
AcDbLine
 10
474.2008481944
 20
-0.9541683654
 30
0.0
 11
843.2008481944
 21
-0.9541683654
 31
0.0
  0
LINE
  5
AD
330
1F
100
AcDbEntity
  8
0
  6
Continuous
 62
     7
370
    25
100
AcDbLine
 10
843.2008481944
 20
218.1458316346
 30
0.0
 11
474.2008481944
 21
218.1458316346
 31
0.0
  0
LINE
  5
AE
330
1F
100
AcDbEntity
  8
0
  6
Continuous
 62
     7
370
    25
100
AcDbLine
 10
1024.2008481944
 20
108.5958316346
 30
0.0
 11
1024.2008481944
 21
221.0958316346
 31
0.0
  0
LINE
  5
AF
330
1F
100
AcDbEntity
  8
0
  6
Continuous
 62
     7
370
    25
100
AcDbLine
 10
1024.2008481944
 20
-3.9041683654
 30
0.0
 11
1024.2008481944
 21
108.5958316346
 31
0.0
  0
LINE
  5
B0
330
1F
100
AcDbEntity
  8
0
  6
Continuous
 62
     7
370
    25
100
AcDbLine
 10
975.2008481944
 20
108.5958316346
 30
0.0
 11
975.2008481944
 21
248.8458316346
 31
0.0
  0
LINE
  5
B1
330
1F
100
AcDbEntity
  8
0
  6
Continuous
 62
     7
370
    25
100
AcDbLine
 10
975.2008481944
 20
-31.6541683654
 30
0.0
 11
975.2008481944
 21
108.5958316346
 31
0.0
  0
LINE
  5
B2
330
1F
100
AcDbEntity
  8
0
  6
Continuous
 62
     7
370
    25
100
AcDbLine
 10
844.2008481944
 20
108.5958316346
 30
0.0
 11
844.2008481944
 21
248.8458316346
 31
0.0
  0
LINE
  5
B3
330
1F
100
AcDbEntity
  8
0
  6
Continuous
 62
     7
370
    25
100
AcDbLine
 10
844.2008481944
 20
-31.6541683654
 30
0.0
 11
844.2008481944
 21
108.5958316346
 31
0.0
  0
LINE
  5
B4
330
1F
100
AcDbEntity
  8
0
  6
Continuous
 62
     7
370
    25
100
AcDbLine
 10
1149.2008481944
 20
108.5958316346
 30
0.0
 11
1149.2008481944
 21
221.0958316346
 31
0.0
  0
LINE
  5
B5
330
1F
100
AcDbEntity
  8
0
  6
Continuous
 62
     7
370
    25
100
AcDbLine
 10
1149.2008481944
 20
-3.9041683654
 30
0.0
 11
1149.2008481944
 21
108.5958316346
 31
0.0
  0
LINE
  5
B6
330
1F
100
AcDbEntity
  8
0
  6
Continuous
 62
     7
370
    25
100
AcDbLine
 10
843.2008481944
 20
108.5958316346
 30
0.0
 11
843.2008481944
 21
218.5958316346
 31
0.0
  0
LINE
  5
B7
330
1F
100
AcDbEntity
  8
0
  6
Continuous
 62
     7
370
    25
100
AcDbLine
 10
843.2008481944
 20
-1.4041683654
 30
0.0
 11
843.2008481944
 21
108.5958316346
 31
0.0
  0
LINE
  5
B8
330
1F
100
AcDbEntity
  8
0
  6
Continuous
 62
     7
370
    25
100
AcDbLine
 10
474.2008481944
 20
108.5958316346
 30
0.0
 11
474.2008481944
 21
218.1458316346
 31
0.0
  0
LINE
  5
B9
330
1F
100
AcDbEntity
  8
0
  6
Continuous
 62
     7
370
    25
100
AcDbLine
 10
474.2008481944
 20
-0.9541683654
 30
0.0
 11
474.2008481944
 21
108.5958316346
 31
0.0
  0
LINE
  5
BA
330
1F
100
AcDbEntity
  8
0
  6
Continuous
 62
     7
370
    25
100
AcDbLine
 10
-2.3075090385
 20
-740.5942303061
 30
0.0
 11
25.4424909615
 21
-789.5942303061
 31
0.0
  0
LINE
  5
BB
330
1F
100
AcDbEntity
  8
0
  6
Continuous
 62
     7
370
    25
100
AcDbLine
 10
250.4424909615
 20
-789.5942303061
 30
0.0
 11
278.1924909615
 21
-740.5942303061
 31
0.0
  0
LINE
  5
BC
330
1F
100
AcDbEntity
  8
0
  6
Continuous
 62
     7
370
    25
100
AcDbLine
 10
-2.3075090385
 20
-609.5942303061
 30
0.0
 11
-2.3075090385
 21
-740.5942303061
 31
0.0
  0
LINE
  5
BD
330
1F
100
AcDbEntity
  8
0
  6
Continuous
 62
     7
370
    25
100
AcDbLine
 10
278.1924909615
 20
-740.5942303061
 30
0.0
 11
278.1924909615
 21
-609.5942303061
 31
0.0
  0
LINE
  5
BE
330
1F
100
AcDbEntity
  8
0
  6
Continuous
 62
     7
370
    25
100
AcDbLine
 10
25.4424909615
 20
-789.5942303061
 30
0.0
 11
25.4424909615
 21
-914.5942303061
 31
0.0
  0
LINE
  5
BF
330
1F
100
AcDbEntity
  8
0
  6
Continuous
 62
     7
370
    25
100
AcDbLine
 10
250.4424909615
 20
-914.5942303061
 30
0.0
 11
250.4424909615
 21
-789.5942303061
 31
0.0
  0
LINE
  5
C0
330
1F
100
AcDbEntity
  8
0
  6
Continuous
 62
     7
370
    25
100
AcDbLine
 10
27.9424909615
 20
-608.5942303061
 30
0.0
 11
27.9424909615
 21
-609.5942303061
 31
0.0
  0
LINE
  5
C1
330
1F
100
AcDbEntity
  8
0
  6
Continuous
 62
     7
370
    25
100
AcDbLine
 10
247.9424909615
 20
-609.5942303061
 30
0.0
 11
247.9424909615
 21
-608.5942303061
 31
0.0
  0
LINE
  5
C2
330
1F
100
AcDbEntity
  8
0
  6
Continuous
 62
     7
370
    25
100
AcDbLine
 10
28.3924909615
 20
-239.5942303061
 30
0.0
 11
28.3924909615
 21
-608.5942303061
 31
0.0
  0
LINE
  5
C3
330
1F
100
AcDbEntity
  8
0
  6
Continuous
 62
     7
370
    25
100
AcDbLine
 10
247.4924909615
 20
-608.5942303061
 30
0.0
 11
247.4924909615
 21
-239.5942303061
 31
0.0
  0
LINE
  5
C4
330
1F
100
AcDbEntity
  8
0
  6
Continuous
 62
     7
370
    25
100
AcDbLine
 10
25.4424909615
 20
-789.5942303061
 30
0.0
 11
250.4424909615
 21
-789.5942303061
 31
0.0
  0
LINE
  5
C5
330
1F
100
AcDbEntity
  8
0
  6
Continuous
 62
     7
370
    25
100
AcDbLine
 10
-2.3075090385
 20
-740.5942303061
 30
0.0
 11
278.1924909615
 21
-740.5942303061
 31
0.0
  0
LINE
  5
C6
330
1F
100
AcDbEntity
  8
0
  6
Continuous
 62
     7
370
    25
100
AcDbLine
 10
-2.3075090385
 20
-609.5942303061
 30
0.0
 11
278.1924909615
 21
-609.5942303061
 31
0.0
  0
LINE
  5
C7
330
1F
100
AcDbEntity
  8
0
  6
Continuous
 62
     7
370
    25
100
AcDbLine
 10
25.4424909615
 20
-914.5942303061
 30
0.0
 11
250.4424909615
 21
-914.5942303061
 31
0.0
  0
LINE
  5
C8
330
1F
100
AcDbEntity
  8
0
  6
Continuous
 62
     7
370
    25
100
AcDbLine
 10
27.9424909615
 20
-608.5942303061
 30
0.0
 11
247.9424909615
 21
-608.5942303061
 31
0.0
  0
LINE
  5
C9
330
1F
100
AcDbEntity
  8
0
  6
Continuous
 62
     7
370
    25
100
AcDbLine
 10
28.3924909615
 20
-239.5942303061
 30
0.0
 11
247.4924909615
 21
-239.5942303061
 31
0.0
  0
LINE
  5
CA
330
1F
100
AcDbEntity
  8
0
  6
Continuous
 62
     7
370
    25
100
AcDbLine
 10
278.1924909615
 20
890.1081663224
 30
0.0
 11
250.4424909615
 21
939.1081663224
 31
0.0
  0
LINE
  5
CB
330
1F
100
AcDbEntity
  8
0
  6
Continuous
 62
     7
370
    25
100
AcDbLine
 10
25.4424909615
 20
939.1081663224
 30
0.0
 11
-2.3075090385
 21
890.1081663224
 31
0.0
  0
LINE
  5
CC
330
1F
100
AcDbEntity
  8
0
  6
Continuous
 62
     7
370
    25
100
AcDbLine
 10
278.1924909615
 20
759.1081663224
 30
0.0
 11
278.1924909615
 21
890.1081663224
 31
0.0
  0
LINE
  5
CD
330
1F
100
AcDbEntity
  8
0
  6
Continuous
 62
     7
370
    25
100
AcDbLine
 10
-2.3075090385
 20
890.1081663224
 30
0.0
 11
-2.3075090385
 21
759.1081663224
 31
0.0
  0
LINE
  5
CE
330
1F
100
AcDbEntity
  8
0
  6
Continuous
 62
     7
370
    25
100
AcDbLine
 10
250.4424909615
 20
939.1081663224
 30
0.0
 11
250.4424909615
 21
1064.1081663224
 31
0.0
  0
LINE
  5
CF
330
1F
100
AcDbEntity
  8
0
  6
Continuous
 62
     7
370
    25
100
AcDbLine
 10
25.4424909615
 20
1064.1081663224
 30
0.0
 11
25.4424909615
 21
939.1081663224
 31
0.0
  0
LINE
  5
D0
330
1F
100
AcDbEntity
  8
0
  6
Continuous
 62
     7
370
    25
100
AcDbLine
 10
247.9424909615
 20
758.1081663224
 30
0.0
 11
247.9424909615
 21
759.1081663224
 31
0.0
  0
LINE
  5
D1
330
1F
100
AcDbEntity
  8
0
  6
Continuous
 62
     7
370
    25
100
AcDbLine
 10
27.9424909615
 20
759.1081663224
 30
0.0
 11
27.9424909615
 21
758.1081663224
 31
0.0
  0
LINE
  5
D2
330
1F
100
AcDbEntity
  8
0
  6
Continuous
 62
     7
370
    25
100
AcDbLine
 10
247.4924909615
 20
389.1081663224
 30
0.0
 11
247.4924909615
 21
758.1081663224
 31
0.0
  0
LINE
  5
D3
330
1F
100
AcDbEntity
  8
0
  6
Continuous
 62
     7
370
    25
100
AcDbLine
 10
28.3924909615
 20
758.1081663224
 30
0.0
 11
28.3924909615
 21
389.1081663224
 31
0.0
  0
LINE
  5
D4
330
1F
100
AcDbEntity
  8
0
  6
Continuous
 62
     7
370
    25
100
AcDbLine
 10
250.4424909615
 20
939.1081663224
 30
0.0
 11
25.4424909615
 21
939.1081663224
 31
0.0
  0
LINE
  5
D5
330
1F
100
AcDbEntity
  8
0
  6
Continuous
 62
     7
370
    25
100
AcDbLine
 10
278.1924909615
 20
890.1081663224
 30
0.0
 11
-2.3075090385
 21
890.1081663224
 31
0.0
  0
LINE
  5
D6
330
1F
100
AcDbEntity
  8
0
  6
Continuous
 62
     7
370
    25
100
AcDbLine
 10
278.1924909615
 20
759.1081663224
 30
0.0
 11
-2.3075090385
 21
759.1081663224
 31
0.0
  0
LINE
  5
D7
330
1F
100
AcDbEntity
  8
0
  6
Continuous
 62
     7
370
    25
100
AcDbLine
 10
250.4424909615
 20
1064.1081663224
 30
0.0
 11
25.4424909615
 21
1064.1081663224
 31
0.0
  0
LINE
  5
D8
330
1F
100
AcDbEntity
  8
0
  6
Continuous
 62
     7
370
    25
100
AcDbLine
 10
247.9424909615
 20
758.1081663224
 30
0.0
 11
27.9424909615
 21
758.1081663224
 31
0.0
  0
LINE
  5
D9
330
1F
100
AcDbEntity
  8
0
  6
Continuous
 62
     7
370
    25
100
AcDbLine
 10
247.4924909615
 20
389.1081663224
 30
0.0
 11
28.3924909615
 21
389.1081663224
 31
0.0
  0
LINE
  5
DA
330
1F
100
AcDbEntity
  8
0
  6
Continuous
 62
     7
370
    25
100
AcDbLine
 10
480.7706261271
 20
-399.5435744732
 30
0.0
 11
741.693028385
 21
-550.1708711045
 31
0.0
  0
LINE
  5
DB
330
1F
100
AcDbEntity
  8
0
  6
Continuous
 62
     7
370
    25
100
AcDbLine
 10
851.2341255453
 20
-360.4195653569
 30
0.0
 11
590.3117232874
 21
-209.7922687256
 31
0.0
  0
LINE
  5
DC
330
1F
100
AcDbEntity
  8
0
  6
Continuous
 62
     7
370
    25
100
AcDbLine
 10
727.0513826202
 20
-577.1667752355
 30
0.0
 11
819.6823709556
 21
-630.6415065599
 31
0.0
  0
LINE
  5
DD
330
1F
100
AcDbEntity
  8
0
  6
Continuous
 62
     7
370
    25
100
AcDbLine
 10
959.9209732078
 20
-387.7148006621
 30
0.0
 11
867.2899848724
 21
-334.2400693377
 31
0.0
  0
LINE
  5
DE
330
1F
100
AcDbEntity
  8
0
  6
Continuous
 62
     7
370
    25
100
AcDbLine
 10
741.4680466701
 20
-550.5605930926
 30
0.0
 11
742.1751534513
 21
-550.9687971485
 31
0.0
  0
LINE
  5
DF
330
1F
100
AcDbEntity
  8
0
  6
Continuous
 62
     7
370
    25
100
AcDbLine
 10
852.1662140413
 20
-360.4380474247
 30
0.0
 11
851.4591072601
 21
-360.0298433688
 31
0.0
  0
LINE
  5
E0
330
1F
100
AcDbEntity
  8
0
  6
Continuous
 62
     7
370
    25
100
AcDbLine
 10
853.6375045869
 20
-636.6892872531
 30
0.0
 11
895.441213856
 21
-631.4618103523
 31
0.0
  0
LINE
  5
E1
330
1F
100
AcDbEntity
  8
0
  6
Continuous
 62
     7
370
    25
100
AcDbLine
 10
998.5169165614
 20
-452.9101097922
 30
0.0
 11
982.1385472929
 21
-414.0948338881
 31
0.0
  0
LINE
  5
E2
330
1F
100
AcDbEntity
  8
0
  6
Continuous
 62
     7
370
    25
100
AcDbLine
 10
879.961051527
 20
-633.397576159
 30
0.0
 11
956.5928232974
 21
-677.6361563574
 31
0.0
  0
LINE
  5
E3
330
1F
100
AcDbEntity
  8
0
  6
Continuous
 62
     7
370
    25
100
AcDbLine
 10
1069.083680719
 20
-482.7751623217
 30
0.0
 11
992.4519089486
 21
-438.5365821233
 31
0.0
  0
LWPOLYLINE
  5
E4
330
1F
100
AcDbEntity
  8
0
  6
Continuous
 62
     7
370
    25
100
AcDbPolyline
 90
      112
 70
   128
 43
0.0
 10
613.0047225863
 20
-259.9491672743
 10
612.8806530377
 20
-254.9600372014
 10
612.508841824
 20
-250.1301364679
 10
611.8904799688
 20
-245.474936702
 10
611.0275482714
 20
-241.0093499119
 10
609.9228109621
 20
-236.7476807184
 10
608.5798068478
 20
-232.7035805328
 10
607.0028379753
 20
-228.890003827
 10
605.1969558515
 20
-225.319166637
 10
603.1679452612
 20
-222.0025074309
 10
600.922305737
 20
-218.9506504679
 10
598.4672307393
 20
-216.173371766
 10
595.8105846135
 20
-213.6795677861
 10
592.960877398
 20
-211.4772269342
 10
589.9272375642
 20
-209.573403972
 10
586.719382775
 20
-207.9741974184
 10
583.3475887565
 20
-206.6847300141
 10
579.8226563812
 20
-205.709132312
 10
576.1558770704
 20
-205.0505294456
 10
572.3589966236
 20
-204.7110311184
 10
568.4441775936
 20
-204.691724846
 10
564.4239603258
 20
-204.9926724721
 10
560.3112227883
 20
-205.6129099708
 10
556.1191393192
 20
-206.5504505344
 10
551.8611384257
 20
-207.8022909378
 10
547.5508597684
 20
-209.3644211588
 10
543.2021104692
 20
-211.2318372233
 10
538.8288208831
 20
-213.3985572348
 10
534.4449999752
 20
-215.8576405358
 10
530.0646904455
 20
-218.6012099411
 10
525.7019237458
 20
-221.6204769708
 10
521.3706751333
 20
-224.9057700025
 10
517.084818903
 20
-228.446565252
 10
512.8580839444
 20
-232.2315204847
 10
508.704009764
 20
-236.248511348
 10
504.6359031136
 20
-240.4846702091
 10
500.6667953653
 20
-244.9264273741
 10
496.8094007678
 20
-249.5595545556
 10
493.0760757189
 20
-254.3692104506
 10
489.4787791842
 20
-259.3399882812
 10
486.0290343891
 20
-264.4559651475
 10
482.737891906
 20
-269.7007530332
 10
479.6158942567
 20
-275.0575513016
 10
476.6730421408
 20
-280.5092005128
 10
473.9187624007
 20
-286.0382373909
 10
471.3618778249
 20
-291.6269507639
 10
469.0105788855
 20
-297.2574382981
 10
466.8723975018
 20
-302.9116638443
 10
464.9541829134
 20
-308.5715152136
 10
463.26207974
 20
-314.2188621957
 10
461.8015082981
 20
-319.8356146357
 10
460.5771472384
 20
-325.4037803822
 10
459.5929185585
 20
-330.9055229217
 10
458.8519750396
 20
-336.3232185142
 10
458.3566901471
 20
-341.6395126473
 10
458.1086504278
 20
-346.8373756283
 10
458.1086504278
 20
-351.9001571351
 10
458.3566901471
 20
-356.811639552
 10
458.8519750396
 20
-361.5560899203
 10
459.5929185585
 20
-366.1183103351
 10
460.5771472384
 20
-370.483686629
 10
461.8015082981
 20
-374.6382351857
 10
463.26207974
 20
-378.5686477337
 10
464.9541829134
 20
-382.2623339766
 10
466.8723975018
 20
-385.7074619239
 10
469.0105788855
 20
-388.8929957921
 10
471.3618778249
 20
-391.8087313559
 10
473.9187624007
 20
-394.4453286352
 10
476.6730421408
 20
-396.7943418142
 10
479.6158942567
 20
-398.8482462953
 10
482.737891906
 20
-400.6004628035
 10
486.0290343891
 20
-402.0453784608
 10
489.4787791842
 20
-403.178364767
 10
493.0760757189
 20
-403.9957924252
 10
496.8094007678
 20
-404.4950429683
 10
500.6667953653
 20
-404.6745171462
 10
504.6359031136
 20
-404.5336400491
 10
508.704009764
 20
-404.0728629487
 10
512.8580839444
 20
-403.2936618531
 10
517.084818903
 20
-402.1985327782
 10
521.3706751333
 20
-400.7909837527
 10
525.7019237458
 20
-399.0755235803
 10
530.0646904455
 20
-397.0576473973
 10
534.4449999752
 20
-394.7438190693
 10
538.8288208831
 20
-392.141450486
 10
543.2021104692
 20
-389.2588778187
 10
547.5508597684
 20
-386.1053348165
 10
551.8611384257
 20
-382.6909232283
 10
556.1191393192
 20
-379.026580444
 10
560.3112227883
 20
-375.1240444581
 10
564.4239603258
 20
-370.9958162699
 10
568.4441775936
 20
-366.6551198389
 10
572.3589966236
 20
-362.1158597242
 10
576.1558770704
 20
-357.3925765447
 10
579.8226563812
 20
-352.5004004002
 10
583.3475887565
 20
-347.4550024057
 10
586.719382775
 20
-342.2725444922
 10
589.9272375642
 20
-336.9696276348
 10
592.960877398
 20
-331.5632386747
 10
595.8105846135
 20
-326.0706959057
 10
598.4672307393
 20
-320.5095935983
 10
600.922305737
 20
-314.8977456395
 10
603.1679452612
 20
-309.2531284703
 10
605.1969558515
 20
-303.5938235012
 10
607.0028379753
 20
-297.9379591921
 10
608.5798068478
 20
-292.3036529816
 10
609.9228109621
 20
-286.7089532509
 10
611.0275482714
 20
-281.17178151
 10
611.8904799688
 20
-275.7098749893
 10
612.508841824
 20
-270.3407298221
 10
612.8806530377
 20
-265.0815449989
 10
613.0047225863
 20
-259.9491672743
  0
LWPOLYLINE
  5
E5
330
1F
100
AcDbEntity
  8
0
  6
Continuous
 62
     7
370
    25
100
AcDbPolyline
 90
      105
 70
   128
 43
0.0
 10
604.0244664652
 20
-265.1333587844
 10
603.8995224128
 20
-260.430636468
 10
603.5251461628
 20
-255.8893312077
 10
602.9027037736
 20
-251.5260137338
 10
602.03446647
 20
-247.3566053187
 10
600.9236023558
 20
-243.3963196814
 10
599.5741648535
 20
-239.6596074749
 10
597.9910779144
 20
-236.1601035567
 10
596.1801180509
 20
-232.910577237
 10
594.1478932593
 20
-229.9228856851
 10
591.9018189073
 20
-227.2079306635
 10
589.4500906768
 20
-224.7756187484
 10
586.8016546582
 20
-222.6348251824
 10
583.9661747073
 20
-220.793361489
 10
580.9539971829
 20
-219.2579469696
 10
577.7761131941
 20
-218.0341841851
 10
574.4441184951
 20
-217.1265385134
 10
570.970171173
 20
-216.5383218549
 10
567.366947285
 20
-216.2716805486
 10
563.6475946043
 20
-216.3275875396
 10
559.8256846454
 20
-216.7058388293
 10
555.9151631433
 20
-217.4050542199
 10
551.9302991669
 20
-218.4226823502
 10
547.8856330527
 20
-219.7550100055
 10
543.7959233487
 20
-221.3971756667
 10
539.6760929622
 20
-223.3431872493
 10
535.5411747073
 20
-225.5859439683
 10
531.4062564524
 20
-228.1172622474
 10
527.2864260658
 20
-230.9279055808
 10
523.1967163618
 20
-234.0076182358
 10
519.1520502476
 20
-237.345162675
 10
515.1671862712
 20
-240.9283605605
 10
511.2566647692
 20
-244.7441371919
 10
507.4347548103
 20
-248.7785692141
 10
503.7154021295
 20
-253.0169354221
 10
500.1121782416
 20
-257.4437704773
 10
496.6382309195
 20
-262.0429213387
 10
493.3062362204
 20
-266.7976062034
 10
490.1283522317
 20
-271.6904757422
 10
487.1161747073
 20
-276.7036764045
 10
484.2806947563
 20
-281.818915565
 10
481.6322587377
 20
-287.0175282706
 10
479.1805305072
 20
-292.2805453473
 10
476.9344561553
 20
-297.5887626166
 10
474.9022313637
 20
-302.9228109693
 10
473.0912715002
 20
-308.2632270414
 10
471.5081845611
 20
-313.5905242339
 10
470.1587470588
 20
-318.885263817
 10
469.0478829445
 20
-324.1281258602
 10
468.1796456409
 20
-329.2999797284
 10
467.5572032518
 20
-334.3819538878
 10
467.1828270018
 20
-339.3555047657
 10
467.0578829494
 20
-344.2024844144
 10
467.1828270018
 20
-348.9052067308
 10
467.5572032518
 20
-353.4465119911
 10
468.1796456409
 20
-357.809829465
 10
469.0478829445
 20
-361.9792378801
 10
470.1587470588
 20
-365.9395235174
 10
471.5081845611
 20
-369.6762357239
 10
473.0912715002
 20
-373.1757396421
 10
474.9022313637
 20
-376.4252659618
 10
476.9344561553
 20
-379.4129575137
 10
479.1805305072
 20
-382.1279125353
 10
481.6322587377
 20
-384.5602244504
 10
484.2806947563
 20
-386.7010180164
 10
487.1161747073
 20
-388.5424817098
 10
490.1283522317
 20
-390.0778962292
 10
493.3062362205
 20
-391.3016590137
 10
496.6382309195
 20
-392.2093046854
 10
500.1121782416
 20
-392.7975213439
 10
503.7154021295
 20
-393.0641626502
 10
507.4347548103
 20
-393.0082556592
 10
511.2566647692
 20
-392.6300043695
 10
515.1671862712
 20
-391.9307889789
 10
519.1520502476
 20
-390.9131608486
 10
523.1967163618
 20
-389.5808331933
 10
527.2864260658
 20
-387.9386675321
 10
531.4062564524
 20
-385.9926559495
 10
535.5411747073
 20
-383.7498992305
 10
539.6760929622
 20
-381.2185809514
 10
543.7959233487
 20
-378.407937618
 10
547.8856330527
 20
-375.328224963
 10
551.9302991669
 20
-371.9906805238
 10
555.9151631433
 20
-368.4074826383
 10
559.8256846454
 20
-364.5917060069
 10
563.6475946043
 20
-360.5572739847
 10
567.366947285
 20
-356.3189077767
 10
570.970171173
 20
-351.8920727215
 10
574.4441184951
 20
-347.2929218601
 10
577.7761131941
 20
-342.5382369954
 10
580.9539971829
 20
-337.6453674567
 10
583.9661747073
 20
-332.6321667943
 10
586.8016546582
 20
-327.5169276338
 10
589.4500906768
 20
-322.3183149282
 10
591.9018189073
 20
-317.0552978515
 10
594.1478932593
 20
-311.7470805822
 10
596.1801180509
 20
-306.4130322295
 10
597.9910779144
 20
-301.0726161574
 10
599.5741648535
 20
-295.7453189649
 10
600.9236023558
 20
-290.4505793818
 10
602.03446647
 20
-285.2077173386
 10
602.9027037736
 20
-280.0358634704
 10
603.5251461628
 20
-274.953889311
 10
603.8995224128
 20
-269.9803384331
 10
604.0244664652
 20
-265.1333587844
  0
LWPOLYLINE
  5
E6
330
1F
100
AcDbEntity
  8
0
  6
Continuous
 62
     7
370
    25
100
AcDbPolyline
 90
       15
 70
   128
 43
0.0
 10
873.9271248441
 20
-410.5764639056
 10
873.8030552955
 20
-405.5873338327
 10
873.4312440819
 20
-400.7574330992
 10
872.8128822266
 20
-396.1022333333
 10
871.9499505292
 20
-391.6366465432
 10
870.84521322
 20
-387.3749773497
 10
869.5022091056
 20
-383.330877164
 10
867.9252402332
 20
-379.5173004583
 10
866.1193581093
 20
-375.9464632683
 10
864.090347519
 20
-372.6298040622
 10
861.8447079948
 20
-369.5779470992
 10
859.3896329971
 20
-366.8006683973
 10
856.7329868713
 20
-364.3068644174
 10
853.8832796559
 20
-362.1045235655
 10
851.2341255453
 20
-360.4195653569
  0
LWPOLYLINE
  5
E7
330
1F
100
AcDbEntity
  8
0
  6
Continuous
 62
     7
370
    25
100
AcDbPolyline
 90
       43
 70
   128
 43
0.0
 10
741.693028385
 20
-550.1708711045
 10
743.6602941639
 20
-551.2277594348
 10
746.9514366469
 20
-552.6726750921
 10
750.401181442
 20
-553.8056613983
 10
753.9984779767
 20
-554.6230890565
 10
757.7318030256
 20
-555.1223395996
 10
761.5891976231
 20
-555.3018137775
 10
765.5583053714
 20
-555.1609366804
 10
769.6264120218
 20
-554.70015958
 10
773.7804862023
 20
-553.9209584844
 10
778.0072211608
 20
-552.8258294095
 10
782.2930773912
 20
-551.418280384
 10
786.6243260037
 20
-549.7028202116
 10
790.9870927033
 20
-547.6849440286
 10
795.3674022331
 20
-545.3711157006
 10
799.7512231409
 20
-542.7687471173
 10
804.124512727
 20
-539.88617445
 10
808.4732620262
 20
-536.7326314477
 10
812.7835406835
 20
-533.3182198596
 10
817.041541577
 20
-529.6538770753
 10
821.2336250461
 20
-525.7513410894
 10
825.3463625836
 20
-521.6231129012
 10
829.3665798514
 20
-517.2824164702
 10
833.2813988815
 20
-512.7431563555
 10
837.0782793283
 20
-508.019873176
 10
840.7450586391
 20
-503.1276970315
 10
844.2699910143
 20
-498.082299037
 10
847.6417850329
 20
-492.8998411235
 10
850.8496398221
 20
-487.596924266
 10
853.8832796559
 20
-482.190535306
 10
856.7329868713
 20
-476.697992537
 10
859.3896329971
 20
-471.1368902296
 10
861.8447079948
 20
-465.5250422708
 10
864.090347519
 20
-459.8804251016
 10
866.1193581093
 20
-454.2211201325
 10
867.9252402332
 20
-448.5652558234
 10
869.5022091056
 20
-442.9309496129
 10
870.84521322
 20
-437.3362498822
 10
871.9499505292
 20
-431.7990781413
 10
872.8128822266
 20
-426.3371716206
 10
873.4312440819
 20
-420.9680264534
 10
873.8030552955
 20
-415.7088416302
 10
873.9271248441
 20
-410.5764639056
  0
LWPOLYLINE
  5
E8
330
1F
100
AcDbEntity
  8
0
  6
Continuous
 62
     7
370
    25
100
AcDbPolyline
 90
       17
 70
   128
 43
0.0
 10
988.9733981432
 20
-451.9275347694
 10
988.8481399497
 20
-446.245873061
 10
988.4726817823
 20
-440.723183755
 10
987.847972081
 20
-435.3734176439
 10
986.9755889167
 20
-430.2100887012
 10
985.8577360049
 20
-425.246239944
 10
984.4972371391
 20
-420.494410485
 10
982.8975290576
 20
-415.9666038578
 10
981.0626527617
 20
-411.6742576949
 10
978.9972433083
 20
-407.6282148352
 10
976.7065181008
 20
-403.8386959342
 10
974.1962637101
 20
-400.3152736455
 10
971.4728212564
 20
-397.0668484396
 10
968.5430703918
 20
-394.1016261205
 10
965.4144119213
 20
-391.4270970971
 10
962.0947491077
 20
-389.0500174617
 10
959.9209732078
 20
-387.7148006621
  0
LWPOLYLINE
  5
E9
330
1F
100
AcDbEntity
  8
0
  6
Continuous
 62
     7
370
    25
100
AcDbPolyline
 90
       48
 70
   128
 43
0.0
 10
819.6823709556
 20
-630.6415065599
 10
822.8277518345
 20
-632.3012655372
 10
826.5872347854
 20
-633.9101316013
 10
830.5064028912
 20
-635.2039138637
 10
834.5753559931
 20
-636.1793441182
 10
838.7838155624
 20
-636.8339583432
 10
843.121150665
 20
-637.1661029266
 10
847.576404816
 20
-637.1749388422
 10
852.1383236568
 20
-636.8604437697
 10
856.7953833844
 20
-636.2234121509
 10
861.5358198618
 20
-635.2654531831
 10
866.3476583351
 20
-633.9889867538
 10
871.2187436826
 20
-632.3972373278
 10
876.13677112
 20
-630.4942258024
 10
881.0893172832
 20
-628.2847593499
 10
886.0638716108
 20
-625.7744192743
 10
891.0478679467
 20
-622.9695469124
 10
896.0287162838
 20
-619.8772276154
 10
900.9938345667
 20
-616.50527285
 10
905.9306804759
 20
-612.8622004668
 10
910.82678311
 20
-608.9572131827
 10
915.669774489
 20
-604.8001753345
 10
920.4474207962
 20
-600.4015879605
 10
925.1476532825
 20
-595.7725622743
 10
929.7585987527
 20
-590.9247915965
 10
934.2686095584
 20
-585.8705218165
 10
938.6662930207
 20
-580.6225204584
 10
942.9405402098
 20
-575.1940444292
 10
947.0805540061
 20
-569.5988065304
 10
951.0758763756
 20
-563.8509408185
 10
954.9164147871
 20
-557.9649669012
 10
958.5924677074
 20
-551.9557532594
 10
962.0947491077
 20
-545.8384796883
 10
965.4144119213
 20
-539.6285989519
 10
968.5430703918
 20
-533.3417977478
 10
971.4728212564
 20
-526.9939570815
 10
974.1962637101
 20
-520.6011121494
 10
976.7065181008
 20
-514.1794118327
 10
978.9972433083
 20
-507.7450779037
 10
981.0626527617
 20
-501.3143640483
 10
982.8975290576
 20
-494.9035148078
 10
984.4972371391
 20
-488.5287245438
 10
985.8577360049
 20
-482.2060965297
 10
986.9755889167
 20
-475.9516022727
 10
987.847972081
 20
-469.781041168
 10
988.4726817823
 20
-463.7100005886
 10
988.8481399497
 20
-457.7538165097
 10
988.9733981432
 20
-451.9275347694
  0
LWPOLYLINE
  5
EA
330
1F
100
AcDbEntity
  8
0
  6
Continuous
 62
     7
370
    25
100
AcDbPolyline
 90
       31
 70
   128
 43
0.0
 10
896.3424098077
 20
-398.452803445
 10
896.2171516142
 20
-392.7711417366
 10
895.8416934469
 20
-387.2484524306
 10
895.2169837456
 20
-381.8986863195
 10
894.3446005812
 20
-376.7353573768
 10
893.2267476695
 20
-371.7715086196
 10
891.8662488037
 20
-367.0196791606
 10
890.2665407221
 20
-362.4918725334
 10
888.4316644263
 20
-358.1995263705
 10
886.3662549728
 20
-354.1534835108
 10
884.0755297654
 20
-350.3639646099
 10
881.5652753746
 20
-346.8405423212
 10
878.841832921
 20
-343.5921171152
 10
875.9120820564
 20
-340.6268947961
 10
872.7834235859
 20
-337.9523657727
 10
869.4637607723
 20
-335.5752861374
 10
865.961479372
 20
-333.5016605996
 10
862.2854264517
 20
-331.7367273176
 10
858.4448880401
 20
-330.2849446658
 10
854.4495656706
 20
-329.1499799734
 10
850.3095518743
 20
-328.3347002595
 10
846.0353046853
 20
-327.8411649915
 10
841.6376212229
 20
-327.6706208824
 10
837.1276104173
 20
-327.8234987414
 10
832.5166649471
 20
-328.2994123856
 10
827.8164324608
 20
-329.097159616
 10
823.0387861535
 20
-330.2147252538
 10
818.1957947746
 20
-331.6492862312
 10
813.2996921404
 20
-333.3972187227
 10
808.3628462313
 20
-335.4541072991
 10
808.151660493
 20
-335.5485876759
  0
LWPOLYLINE
  5
EB
330
1F
100
AcDbEntity
  8
0
  6
Continuous
 62
     7
370
    25
100
AcDbPolyline
 90
       62
 70
   128
 43
0.0
 10
698.6105633327
 20
-525.2998934235
 10
698.780956366
 20
-526.8557458645
 10
699.5297392725
 20
-532.1139539898
 10
700.5251716788
 20
-537.1791424806
 10
701.7647390363
 20
-542.038516231
 10
703.2453100901
 20
-546.6798000413
 10
704.9631447895
 20
-551.0912696257
 10
706.9139037347
 20
-555.2617812292
 10
709.0926591394
 20
-559.1807997776
 10
711.4939072784
 20
-562.8384254898
 10
714.1115823905
 20
-566.225418886
 10
716.9390720011
 20
-569.3332241267
 10
719.9692336262
 20
-572.1539906263
 10
723.1944128144
 20
-574.6805928837
 10
726.6064624832
 20
-576.9066484824
 10
730.196763499
 20
-578.8265342128
 10
733.95624645
 20
-580.4354002769
 10
737.8754145558
 20
-581.7291825393
 10
741.9443676577
 20
-582.7046127938
 10
746.152827227
 20
-583.3592270189
 10
750.4901623296
 20
-583.6913716022
 10
754.9454164806
 20
-583.7002075178
 10
759.5073353214
 20
-583.3857124453
 10
764.164395049
 20
-582.7486808266
 10
768.9048315264
 20
-581.7907218587
 10
773.7166699997
 20
-580.5142554294
 10
778.5877553472
 20
-578.9225060034
 10
783.5057827846
 20
-577.019494478
 10
788.4583289478
 20
-574.8100280255
 10
793.4328832754
 20
-572.2996879499
 10
798.4168796113
 20
-569.494815588
 10
803.3977279483
 20
-566.402496291
 10
808.3628462313
 20
-563.0305415256
 10
813.2996921404
 20
-559.3874691424
 10
818.1957947746
 20
-555.4824818583
 10
823.0387861535
 20
-551.3254440101
 10
827.8164324608
 20
-546.9268566361
 10
832.5166649471
 20
-542.29783095
 10
837.1276104173
 20
-537.4500602721
 10
841.6376212229
 20
-532.3957904921
 10
846.0353046853
 20
-527.1477891341
 10
850.3095518743
 20
-521.7193131048
 10
854.4495656707
 20
-516.124075206
 10
858.4448880401
 20
-510.3762094941
 10
862.2854264517
 20
-504.4902355768
 10
865.961479372
 20
-498.481021935
 10
869.4637607723
 20
-492.3637483639
 10
872.7834235859
 20
-486.1538676275
 10
875.9120820564
 20
-479.8670664234
 10
878.841832921
 20
-473.5192257571
 10
881.5652753746
 20
-467.126380825
 10
884.0755297654
 20
-460.7046805083
 10
886.3662549728
 20
-454.2703465793
 10
888.4316644263
 20
-447.8396327239
 10
890.2665407221
 20
-441.4287834834
 10
891.8662488037
 20
-435.0539932194
 10
893.2267476695
 20
-428.7313652053
 10
894.3446005812
 20
-422.4768709483
 10
895.2169837456
 20
-416.3063098436
 10
895.8416934469
 20
-410.2352692642
 10
896.2171516142
 20
-404.2790851853
 10
896.3424098077
 20
-398.452803445
  0
LWPOLYLINE
  5
EC
330
1F
100
AcDbEntity
  8
0
  6
Continuous
 62
     7
370
    25
100
AcDbPolyline
 90
       15
 70
   128
 43
0.0
 10
874.9524296768
 20
-410.8009761364
 10
874.8278504861
 20
-405.7913521471
 10
874.4545119786
 20
-400.9416115658
 10
873.8336100701
 20
-396.2672895735
 10
872.9671336966
 20
-391.7833594329
 10
871.8578584431
 20
-387.5041845239
 10
870.5093376528
 20
-383.4434723338
 10
868.9258910442
 20
-379.614230548
 10
867.1125908742
 20
-376.0287253823
 10
865.07524569
 20
-372.6984422908
 10
862.8203817223
 20
-369.6340491742
 10
860.3552219802
 20
-366.8453622074
 10
857.6876631136
 20
-364.3413143955
 10
854.8262501177
 20
-362.1299269587
 10
852.1662140413
 20
-360.4380474247
  0
LWPOLYLINE
  5
ED
330
1F
100
AcDbEntity
  8
0
  6
Continuous
 62
     7
370
    25
100
AcDbPolyline
 90
       43
 70
   128
 43
0.0
 10
742.1751534513
 20
-550.9687971485
 10
744.1505001942
 20
-552.0300268731
 10
747.4551617472
 20
-553.4808778298
 10
750.9190771051
 20
-554.618518119
 10
754.5311503029
 20
-555.4393035357
 10
758.279810781
 20
-555.9406048569
 10
762.1530504499
 20
-556.1208162633
 10
766.1384621552
 20
-555.9793604835
 10
770.2232794217
 20
-555.5166906428
 10
774.3944173482
 20
-554.7342888124
 10
778.6385145225
 20
-553.6346612612
 10
782.9419758217
 20
-552.2213304277
 10
787.2910159621
 20
-550.4988236367
 10
791.6717036569
 20
-548.4726585967
 10
796.0700062426
 20
-546.1493257251
 10
800.4718346303
 20
-543.5362673576
 10
804.8630884365
 20
-540.641853908
 10
809.2297011513
 20
-537.475357055
 10
813.5576851979
 20
-534.0469200427
 10
817.8331767386
 20
-530.3675251885
 10
822.0424800851
 20
-526.4489587034
 10
826.1721115696
 20
-522.303772937
 10
830.2088427375
 20
-517.9452461692
 10
834.1397427221
 20
-513.3873400751
 10
837.9522196655
 20
-508.6446550021
 10
841.6340610547
 20
-503.7323832002
 10
845.1734728418
 20
-498.666260157
 10
848.5591172238
 20
-493.4625141918
 10
851.7801489609
 20
-488.1378144718
 10
854.8262501177
 20
-482.7092176155
 10
857.6876631136
 20
-477.1941130552
 10
860.3552219802
 20
-471.6101673334
 10
862.8203817223
 20
-465.9752675117
 10
865.07524569
 20
-460.3074638731
 10
867.1125908742
 20
-454.6249121013
 10
868.9258910442
 20
-448.9458151228
 10
870.5093376528
 20
-443.2883647972
 10
871.8578584431
 20
-437.6706836436
 10
872.9671336966
 20
-432.1107667884
 10
873.8336100701
 20
-426.6264243212
 10
874.4545119786
 20
-421.2352242446
 10
874.8278504861
 20
-415.9544361976
 10
874.9524296768
 20
-410.8009761364
  0
LWPOLYLINE
  5
EE
330
1F
100
AcDbEntity
  8
0
  6
Continuous
 62
     7
370
    25
100
AcDbPolyline
 90
       17
 70
   128
 43
0.0
 10
874.2453228956
 20
-410.3927720804
 10
874.1207437049
 20
-405.3831480912
 10
873.7474051974
 20
-400.5334075099
 10
873.1265032889
 20
-395.8590855176
 10
872.2600269154
 20
-391.375155377
 10
871.1507516619
 20
-387.095980468
 10
869.8022308716
 20
-383.0352682779
 10
868.218784263
 20
-379.2060264921
 10
866.405484093
 20
-375.6205213264
 10
864.3681389088
 20
-372.2902382349
 10
862.1132749411
 20
-369.2258451183
 10
859.648115199
 20
-366.4371581515
 10
856.9805563324
 20
-363.9331103396
 10
854.1191433365
 20
-361.7217229028
 10
851.0730421798
 20
-359.8100795815
 10
847.8520104426
 20
-358.2043039458
 10
846.2638751146
 20
-357.5503008573
  0
LWPOLYLINE
  5
EF
330
1F
100
AcDbEntity
  8
0
  6
Continuous
 62
     7
370
    25
100
AcDbPolyline
 90
       45
 70
   128
 43
0.0
 10
736.7227779544
 20
-547.3016066049
 10
737.3536309832
 20
-547.8000673738
 10
740.3085714922
 20
-549.8624087059
 10
743.443393413
 20
-551.6218228172
 10
746.748054966
 20
-553.0726737739
 10
750.211970324
 20
-554.210314063
 10
753.8240435217
 20
-555.0310994798
 10
757.5727039999
 20
-555.532400801
 10
761.4459436687
 20
-555.7126122074
 10
765.431355374
 20
-555.5711564275
 10
769.5161726405
 20
-555.1084865869
 10
773.687310567
 20
-554.3260847565
 10
777.9314077413
 20
-553.2264572053
 10
782.2348690406
 20
-551.8131263718
 10
786.5839091809
 20
-550.0906195808
 10
790.9645968757
 20
-548.0644545407
 10
795.3628994615
 20
-545.7411216692
 10
799.7647278491
 20
-543.1280633017
 10
804.1559816553
 20
-540.2336498521
 10
808.5225943701
 20
-537.0671529991
 10
812.8505784168
 20
-533.6387159868
 10
817.1260699575
 20
-529.9593211326
 10
821.3353733039
 20
-526.0407546475
 10
825.4650047884
 20
-521.8955688811
 10
829.5017359564
 20
-517.5370421133
 10
833.4326359409
 20
-512.9791360192
 10
837.2451128843
 20
-508.2364509462
 10
840.9269542735
 20
-503.3241791443
 10
844.4663660606
 20
-498.258056101
 10
847.8520104426
 20
-493.0543101359
 10
851.0730421798
 20
-487.7296104159
 10
854.1191433365
 20
-482.3010135596
 10
856.9805563324
 20
-476.7859089992
 10
859.648115199
 20
-471.2019632775
 10
862.1132749411
 20
-465.5670634558
 10
864.3681389088
 20
-459.8992598172
 10
866.405484093
 20
-454.2167080454
 10
868.218784263
 20
-448.5376110669
 10
869.8022308716
 20
-442.8801607413
 10
871.1507516619
 20
-437.2624795877
 10
872.2600269154
 20
-431.7025627324
 10
873.1265032889
 20
-426.2182202653
 10
873.7474051974
 20
-420.8270201887
 10
874.1207437049
 20
-415.5462321417
 10
874.2453228956
 20
-410.3927720804
  0
ARC
  5
F0
330
1F
100
AcDbEntity
  8
0
  6
Continuous
 62
     7
370
    25
100
AcDbCircle
 10
927.2881014016
 20
-481.447075397
 30
0.0
 40
76.73266915071153
100
AcDbArc
 50
358.6482694129
 51
21.8329121509
  0
LWPOLYLINE
  5
F1
330
1F
100
AcDbEntity
  8
0
  6
Continuous
 62
     7
370
    25
100
AcDbPolyline
 90
       36
 70
   128
 43
0.0
 10
895.441213856
 20
-631.4618103523
 10
898.1763658657
 20
-631.0534601226
 10
902.4277742772
 20
-630.1639310907
 10
906.7484724573
 20
-628.9566697304
 10
911.124865891
 20
-627.4354745328
 10
915.5431848256
 20
-625.6051317406
 10
919.989527595
 20
-623.4714002894
 10
924.4499043599
 20
-621.0409936878
 10
928.9102811248
 20
-618.3215588941
 10
933.3566238942
 20
-615.3216522563
 10
937.7749428287
 20
-612.0507125905
 10
942.1513362625
 20
-608.519031483
 10
946.4720344426
 20
-604.7377209093
 10
950.723442854
 20
-600.7186782712
 10
954.8921849931
 20
-596.4745489639
 10
958.9651444548
 20
-592.0186865883
 10
962.9295062017
 20
-587.365110936
 10
966.7727968851
 20
-582.5284638776
 10
970.4829240906
 20
-577.5239632941
 10
974.0482143856
 20
-572.367355196
 10
977.4574500475
 20
-567.07486418
 10
980.6999043599
 20
-561.6631423808
 10
983.7653753617
 20
-556.1492170775
 10
986.6442179472
 20
-550.550437119
 10
989.3273742124
 20
-544.8844183383
 10
991.8064019552
 20
-539.1689881268
 10
994.0735012369
 20
-533.4221293425
 10
996.1215389247
 20
-527.6619237291
 10
997.9440711342
 20
-521.9064950247
 10
999.5353635048
 20
-516.1739519373
 10
1000.8904092419
 20
-510.4823311681
 10
1002.0049448705
 20
-504.8495406619
 10
1002.875463649
 20
-499.2933032616
 10
1003.4992266033
 20
-493.8311009456
 10
1003.8742711444
 20
-488.4801198231
 10
1003.9994172434
 20
-483.2571960606
  0
LWPOLYLINE
  5
F2
330
1F
100
AcDbEntity
  8
0
  6
Continuous
 62
     7
370
    25
100
AcDbPolyline
 90
       16
 70
   128
 43
0.0
 10
1092.3877648917
 20
-534.2827030495
 10
1092.2626187927
 20
-529.2042698974
 10
1091.8875742516
 20
-524.286305985
 10
1091.2638112973
 20
-519.5442850466
 10
1090.3932925188
 20
-514.9931272342
 10
1089.2787568902
 20
-510.6471521741
 10
1087.9237111531
 20
-506.5200339117
 10
1086.3324187825
 20
-502.624757888
 10
1084.509886573
 20
-498.9735800824
 10
1082.4618488853
 20
-495.5779884511
 10
1080.1947496035
 20
-492.4486667816
 10
1077.7157218607
 20
-489.5954610778
 10
1075.0325655955
 20
-487.0273485801
 10
1072.15372301
 20
-484.7524095208
 10
1069.0882520082
 20
-482.7778016998
 10
1069.083680719
 20
-482.7751623217
  0
LWPOLYLINE
  5
F3
330
1F
100
AcDbEntity
  8
0
  6
Continuous
 62
     7
370
    25
100
AcDbPolyline
 90
       43
 70
   128
 43
0.0
 10
956.5928232974
 20
-677.6361563574
 10
959.8307063205
 20
-679.3015807155
 10
963.2399419825
 20
-680.657852021
 10
966.8052322774
 20
-681.6980635646
 10
970.515359483
 20
-682.4189424559
 10
974.3586501664
 20
-682.8182205433
 10
978.3230119133
 20
-682.8946415501
 10
982.395971375
 20
-682.6479650276
 10
986.5647135141
 20
-682.0789671115
 10
990.8161219255
 20
-681.1894380796
 10
995.1368201056
 20
-679.9821767193
 10
999.5132135394
 20
-678.4609815217
 10
1003.9315324739
 20
-676.6306387295
 10
1008.3778752433
 20
-674.4969072783
 10
1012.8382520082
 20
-672.0665006767
 10
1017.2986287731
 20
-669.347065883
 10
1021.7449715425
 20
-666.3471592452
 10
1026.163290477
 20
-663.0762195794
 10
1030.5396839108
 20
-659.544538472
 10
1034.8603820909
 20
-655.7632278982
 10
1039.1117905024
 20
-651.7441852601
 10
1043.2805326414
 20
-647.5000559528
 10
1047.3534921031
 20
-643.0441935772
 10
1051.31785385
 20
-638.3906179249
 10
1055.1611445334
 20
-633.5539708665
 10
1058.871271739
 20
-628.5494702831
 10
1062.4365620339
 20
-623.3928621849
 10
1065.8457976959
 20
-618.1003711689
 10
1069.0882520082
 20
-612.6886493698
 10
1072.15372301
 20
-607.1747240664
 10
1075.0325655955
 20
-601.5759441079
 10
1077.7157218607
 20
-595.9099253272
 10
1080.1947496035
 20
-590.1944951157
 10
1082.4618488853
 20
-584.4476363314
 10
1084.509886573
 20
-578.6874307181
 10
1086.3324187825
 20
-572.9320020136
 10
1087.9237111531
 20
-567.1994589262
 10
1089.2787568902
 20
-561.507838157
 10
1090.3932925188
 20
-555.8750476509
 10
1091.2638112973
 20
-550.3188102505
 10
1091.8875742516
 20
-544.8566079345
 10
1092.2626187927
 20
-539.5056268121
 10
1092.3877648917
 20
-534.2827030495
  0
ENDSEC
  0
SECTION
  2
OBJECTS
  0
DICTIONARY
  5
C
330
0
100
AcDbDictionary
281
     1
  3
ACAD_GROUP
350
D
  3
ACAD_LAYOUT
350
1A
  3
ACAD_MLINESTYLE
350
17
  3
ACAD_PLOTSETTINGS
350
19
  3
ACAD_PLOTSTYLENAME
350
E
  3
ACAD_SCALELIST
350
47
  3
DWGPROPS
350
F4
  0
DICTIONARY
  5
D
102
{ACAD_REACTORS
330
C
102
}
330
C
100
AcDbDictionary
281
     1
  0
DICTIONARY
  5
1A
102
{ACAD_REACTORS
330
C
102
}
330
C
100
AcDbDictionary
281
     1
  3
Layout1
350
1E
  3
Layout2
350
26
  3
Model
350
22
  0
DICTIONARY
  5
17
102
{ACAD_REACTORS
330
C
102
}
330
C
100
AcDbDictionary
281
     1
  3
Standard
350
18
  0
DICTIONARY
  5
19
102
{ACAD_REACTORS
330
C
102
}
330
C
100
AcDbDictionary
281
     1
  0
ACDBDICTIONARYWDFLT
  5
E
102
{ACAD_REACTORS
330
C
102
}
330
C
100
AcDbDictionary
281
     1
  3
Normal
350
F
100
AcDbDictionaryWithDefault
340
F
  0
DICTIONARY
  5
47
102
{ACAD_REACTORS
330
C
102
}
330
C
100
AcDbDictionary
281
     1
  3
A0
350
48
  3
A1
350
49
  3
A2
350
4A
  3
A3
350
4B
  3
A4
350
4C
  3
A5
350
4D
  3
A6
350
4E
  3
A7
350
4F
  3
A8
350
50
  3
A9
350
51
  3
B0
350
52
  3
B1
350
53
  3
B2
350
54
  3
B3
350
55
  3
B4
350
56
  3
B5
350
57
  3
B6
350
58
  3
B7
350
59
  3
B8
350
5A
  3
B9
350
5B
  3
C0
350
5C
  3
C1
350
5D
  3
C2
350
5E
  3
C3
350
5F
  3
C4
350
60
  3
C5
350
61
  3
C6
350
62
  3
C7
350
63
  3
C8
350
64
  3
C9
350
65
  3
D0
350
66
  3
D1
350
67
  3
D2
350
68
  0
XRECORD
  5
F4
102
{ACAD_REACTORS
330
C
102
}
330
C
100
AcDbXrecord
280
     1
  1
DWGPROPS COOKIE
  2

  3

  4

  6

  7

  8
b.kav
  9

300
=
301
=
302
=
303
=
304
=
305
=
306
=
307
=
308
=
309
=
 40
0.0
 41
2459935.584732384
 42
2459935.584732558
  1

 90
        0
  0
LAYOUT
  5
1E
102
{ACAD_REACTORS
330
1A
102
}
330
1A
100
AcDbPlotSettings
  1

  2
none_device
  4

  6

 40
0.0
 41
0.0
 42
0.0
 43
0.0
 44
0.0
 45
0.0
 46
0.0
 47
0.0
 48
0.0
 49
0.0
140
0.0
141
0.0
142
1.0
143
1.0
 70
   688
 72
     1
 73
     0
 74
     5
  7

 75
    16
147
1.0
148
0.0
149
0.0
100
AcDbLayout
  1
Layout1
 70
     1
 71
     1
 10
0.0
 20
0.0
 11
420.0
 21
297.0
 12
0.0
 22
0.0
 32
0.0
 14
1.0000000000E+20
 24
1.0000000000E+20
 34
1.0000000000E+20
 15
-1.0000000000E+20
 25
-1.0000000000E+20
 35
-1.0000000000E+20
146
0.0
 13
0.0
 23
0.0
 33
0.0
 16
1.0
 26
0.0
 36
0.0
 17
0.0
 27
1.0
 37
0.0
 76
     0
330
1B
  0
LAYOUT
  5
26
102
{ACAD_REACTORS
330
1A
102
}
330
1A
100
AcDbPlotSettings
  1

  2
none_device
  4

  6

 40
0.0
 41
0.0
 42
0.0
 43
0.0
 44
0.0
 45
0.0
 46
0.0
 47
0.0
 48
0.0
 49
0.0
140
0.0
141
0.0
142
1.0
143
1.0
 70
   688
 72
     1
 73
     0
 74
     5
  7

 75
    16
147
1.0
148
0.0
149
0.0
100
AcDbLayout
  1
Layout2
 70
     1
 71
     2
 10
0.0
 20
0.0
 11
0.0
 21
0.0
 12
0.0
 22
0.0
 32
0.0
 14
0.0
 24
0.0
 34
0.0
 15
0.0
 25
0.0
 35
0.0
146
0.0
 13
0.0
 23
0.0
 33
0.0
 16
1.0
 26
0.0
 36
0.0
 17
0.0
 27
1.0
 37
0.0
 76
     0
330
23
  0
LAYOUT
  5
22
102
{ACAD_REACTORS
330
1A
102
}
330
1A
100
AcDbPlotSettings
  1

  2
none_device
  4
Letter_(8.50_x_11.00_Inches)
  6

 40
6.35
 41
6.35
 42
6.35000508
 43
6.35000508
 44
215.9
 45
279.4
 46
0.0
 47
0.0
 48
0.0
 49
0.0
140
0.0
141
0.0
142
1.0
143
1.0
 70
  1712
 72
     1
 73
     0
 74
     0
  7

 75
     0
147
1.0
148
0.0
149
0.0
100
AcDbLayout
  1
Model
 70
     1
 71
     0
 10
0.0
 20
0.0
 11
279.4
 21
215.9
 12
0.0
 22
0.0
 32
0.0
 14
0.0
 24
0.0
 34
0.0
 15
279.4
 25
215.9
 35
0.0
146
0.0
 13
0.0
 23
0.0
 33
0.0
 16
1.0
 26
0.0
 36
0.0
 17
0.0
 27
1.0
 37
0.0
 76
     0
330
1F
331
29
  0
MLINESTYLE
  5
18
102
{ACAD_REACTORS
330
17
102
}
330
17
100
AcDbMlineStyle
  2
Standard
 70
     0
  3

 62
   256
 51
90.0
 52
90.0
 71
     2
 49
0.5
 62
   256
  6
BYLAYER
 49
-0.5
 62
   256
  6
BYLAYER
  0
ACDBPLACEHOLDER
  5
F
102
{ACAD_REACTORS
330
E
102
}
330
E
  0
SCALE
  5
48
102
{ACAD_REACTORS
330
47
102
}
330
47
100
AcDbScale
 70
     0
300
1:1
140
1.0
141
1.0
290
     1
  0
SCALE
  5
49
102
{ACAD_REACTORS
330
47
102
}
330
47
100
AcDbScale
 70
     0
300
1:2
140
1.0
141
2.0
290
     0
  0
SCALE
  5
4A
102
{ACAD_REACTORS
330
47
102
}
330
47
100
AcDbScale
 70
     0
300
1:4
140
1.0
141
4.0
290
     0
  0
SCALE
  5
4B
102
{ACAD_REACTORS
330
47
102
}
330
47
100
AcDbScale
 70
     0
300
1:5
140
1.0
141
5.0
290
     0
  0
SCALE
  5
4C
102
{ACAD_REACTORS
330
47
102
}
330
47
100
AcDbScale
 70
     0
300
1:8
140
1.0
141
8.0
290
     0
  0
SCALE
  5
4D
102
{ACAD_REACTORS
330
47
102
}
330
47
100
AcDbScale
 70
     0
300
1:10
140
1.0
141
10.0
290
     0
  0
SCALE
  5
4E
102
{ACAD_REACTORS
330
47
102
}
330
47
100
AcDbScale
 70
     0
300
1:16
140
1.0
141
16.0
290
     0
  0
SCALE
  5
4F
102
{ACAD_REACTORS
330
47
102
}
330
47
100
AcDbScale
 70
     0
300
1:20
140
1.0
141
20.0
290
     0
  0
SCALE
  5
50
102
{ACAD_REACTORS
330
47
102
}
330
47
100
AcDbScale
 70
     0
300
1:30
140
1.0
141
30.0
290
     0
  0
SCALE
  5
51
102
{ACAD_REACTORS
330
47
102
}
330
47
100
AcDbScale
 70
     0
300
1:40
140
1.0
141
40.0
290
     0
  0
SCALE
  5
52
102
{ACAD_REACTORS
330
47
102
}
330
47
100
AcDbScale
 70
     0
300
1:50
140
1.0
141
50.0
290
     0
  0
SCALE
  5
53
102
{ACAD_REACTORS
330
47
102
}
330
47
100
AcDbScale
 70
     0
300
1:100
140
1.0
141
100.0
290
     0
  0
SCALE
  5
54
102
{ACAD_REACTORS
330
47
102
}
330
47
100
AcDbScale
 70
     0
300
2:1
140
2.0
141
1.0
290
     0
  0
SCALE
  5
55
102
{ACAD_REACTORS
330
47
102
}
330
47
100
AcDbScale
 70
     0
300
4:1
140
4.0
141
1.0
290
     0
  0
SCALE
  5
56
102
{ACAD_REACTORS
330
47
102
}
330
47
100
AcDbScale
 70
     0
300
8:1
140
8.0
141
1.0
290
     0
  0
SCALE
  5
57
102
{ACAD_REACTORS
330
47
102
}
330
47
100
AcDbScale
 70
     0
300
10:1
140
10.0
141
1.0
290
     0
  0
SCALE
  5
58
102
{ACAD_REACTORS
330
47
102
}
330
47
100
AcDbScale
 70
     0
300
100:1
140
100.0
141
1.0
290
     0
  0
SCALE
  5
59
102
{ACAD_REACTORS
330
47
102
}
330
47
100
AcDbScale
 70
     0
300
1/128" = 1'-0"
140
0.0078125
141
12.0
290
     0
  0
SCALE
  5
5A
102
{ACAD_REACTORS
330
47
102
}
330
47
100
AcDbScale
 70
     0
300
1/64" = 1'-0"
140
0.015625
141
12.0
290
     0
  0
SCALE
  5
5B
102
{ACAD_REACTORS
330
47
102
}
330
47
100
AcDbScale
 70
     0
300
1/32" = 1'-0"
140
0.03125
141
12.0
290
     0
  0
SCALE
  5
5C
102
{ACAD_REACTORS
330
47
102
}
330
47
100
AcDbScale
 70
     0
300
1/16" = 1'-0"
140
0.0625
141
12.0
290
     0
  0
SCALE
  5
5D
102
{ACAD_REACTORS
330
47
102
}
330
47
100
AcDbScale
 70
     0
300
3/32" = 1'-0"
140
0.09375
141
12.0
290
     0
  0
SCALE
  5
5E
102
{ACAD_REACTORS
330
47
102
}
330
47
100
AcDbScale
 70
     0
300
1/8" = 1'-0"
140
0.125
141
12.0
290
     0
  0
SCALE
  5
5F
102
{ACAD_REACTORS
330
47
102
}
330
47
100
AcDbScale
 70
     0
300
3/16" = 1'-0"
140
0.1875
141
12.0
290
     0
  0
SCALE
  5
60
102
{ACAD_REACTORS
330
47
102
}
330
47
100
AcDbScale
 70
     0
300
1/4" = 1'-0"
140
0.25
141
12.0
290
     0
  0
SCALE
  5
61
102
{ACAD_REACTORS
330
47
102
}
330
47
100
AcDbScale
 70
     0
300
3/8" = 1'-0"
140
0.375
141
12.0
290
     0
  0
SCALE
  5
62
102
{ACAD_REACTORS
330
47
102
}
330
47
100
AcDbScale
 70
     0
300
1/2" = 1'-0"
140
0.5
141
12.0
290
     0
  0
SCALE
  5
63
102
{ACAD_REACTORS
330
47
102
}
330
47
100
AcDbScale
 70
     0
300
3/4" = 1'-0"
140
0.75
141
12.0
290
     0
  0
SCALE
  5
64
102
{ACAD_REACTORS
330
47
102
}
330
47
100
AcDbScale
 70
     0
300
1" = 1'-0"
140
1.0
141
12.0
290
     0
  0
SCALE
  5
65
102
{ACAD_REACTORS
330
47
102
}
330
47
100
AcDbScale
 70
     0
300
1-1/2" = 1'-0"
140
1.5
141
12.0
290
     0
  0
SCALE
  5
66
102
{ACAD_REACTORS
330
47
102
}
330
47
100
AcDbScale
 70
     0
300
3" = 1'-0"
140
3.0
141
12.0
290
     0
  0
SCALE
  5
67
102
{ACAD_REACTORS
330
47
102
}
330
47
100
AcDbScale
 70
     0
300
6" = 1'-0"
140
6.0
141
12.0
290
     0
  0
SCALE
  5
68
102
{ACAD_REACTORS
330
47
102
}
330
47
100
AcDbScale
 70
     0
300
1'-0" = 1'-0"
140
12.0
141
12.0
290
     0
  0
ENDSEC
  0
EOF
